Candles


Setting   : E-A-D-G-B-E

Transcription done by: Sven Deckers

() - palm mute		^ - bend 1 step 	h - hammer on
[] - little feedback	p - pull off		s - slide

Within Temptation - Candles

Tune to D (D,G,C,F,A,D)

Intro (madoline? / Don't take this too precise ;) )
Sol... La... Sol... La... Sol... La... Sol... Re#...

for guitar:
|--17-1717171717-17171717-17h19-1919191919-191919--- x3 
|---------------------------------------------------   
|---------------------------------------------------
|---------------------------------------------------
|---------------------------------------------------
|---------------------------------------------------

|--17-1717171717-17171717--------------------------- 4th time
|-------------------------18-1818181818-18181818---- 
|---------------------------------------------------
|---------------------------------------------------
|---------------------------------------------------
|---------------------------------------------------


Riff 1
|-----------------------------------------------------------------------------------
|-----------------------------------------------------------------------------------
|-----------------------------------------------------------------------------------
|-----------------------------------------------------------------------------------
|--5--5--(9)(9)9--10--10-10-9--(9)(9)9--7--3--9--(9)(9)9--10--10-9--(9)(9)9--7--3---
|--3--7--(7)(7)7--8---8--8--7--(7)(7)7--5--1--7--(7)(7)7--8---8--7--(7)(7)7--5--1---


Riff 2
|-------------------------------------------------------------------- 1st & 3rd time
|--------------------------------------------------------------------
|--------------------------------------------------------------------
|--------------------------------------------------------------------
|--2--(2)(2)(2)(2)-2--(2)(2)(2)(2)-3--(3)(3)(3)(3)-3--(3)(3)(3)(3)---
|--0--(0)(0)(0)(0)-0--(0)(0)(0)(0)-1--(1)(1)(1)(1)-1--(1)(1)(1)(1)---
|
|---------------------------------------------------------- 2nd time
|----------------------------------------------------------
|----------------------------------------------------------
|--------------------------------------------------7-7-7---
|--2--(2)(2)(2)(2)-2--(2)(2)(2)(2)-3--(3)(3)(3)(3)-5-5-5---
|--0--(0)(0)(0)(0)-0--(0)(0)(0)(0)-1--(1)(1)(1)(1)-5-5-5---
|
|------------------------------------------------------------------------- 4th time
|-------------------------------------------------------------------------
|-------------------------------------------------------------------------
|-------------------------------------------------------------------------
|--2--(2)(2)(2)(2)-2--(2)(2)(2)(2)-(3)(3)(3)(3)(3)(3)(3)(3)(3)(3)(3)(3)---
|--0--(0)(0)(0)(0)-0--(0)(0)(0)(0)-(1)(1)(1)(1)(1)(1)(1)(1)(1)(1)(1)(1)---


Riff 3
|-------------------------------------
|-------------------------------------
|-------------------------------------
|--------------------4----------------
|--7--7--7--7--3--3--2--(5)-(5)-(5)---
|--5--5--5--5--1--1-----(3)-(3)-(3)---


Riff 4
|------------------------------------------------------------
|------------------------------------------------------------
|------------------------------------------------------------
|--7--(7)(7)(7)(7)7--(7)(7)(7)(7)7--(7)(7)(7)(7)7--(7)(7)7---
|--5--(5)(5)(5)(5)5--(5)(5)(5)(5)5--(5)(5)(5)(5)5--(5)(5)5---
|------------------------------------------------------------
|
|-----------------------------------------------------------------
|-----------------------------------------------------------------
|-----------------------------------------------------------------
|-----------------------------------------------------------------
|--3--(3)(3)(3)(3)3--(3)(3)(3)(3)3--(3)(3)(3)(3)2--(2)(2)(3)(2)---
|--1--(1)(1)(1)(1)1--(1)(1)(1)(1)1--(1)(1)(1)(1)0--(0)(0)(1)(0)---


Riff 5
Listen to the song to hear how many times you got to play this.
|-----
|-----
|-----
|-----
|--2--
|--0--


Repeat Riff 3