Deep Within


Transcription done by: Sven Deckers

() - palm mute		^ - bend 1 step 	h - hammer on
[] - little feedback	p - pull off		s - slide

Tune to D (D,G,C,F,A,D)

Riff 1.1
|-------------------------------------------------------
|-------------------------------------------------------
|-------------------------------------------------------
|--------------------------------5-7-7-7----------------
|--(5)-5-7-7-7--(7)-7-2-2-2--(2)-3-5-5-5--(2)-5-7-7-7---
|--(3)-3-5-5-5--(5)-5-0-0-0--(0)----------(0)-3-5-5-5---

Riff 1.2 (When all join)
|-------------------------------------------------------
|-------------------------------------------------------
|-------------------------------------------------------
|--------------------------------5s7-7-7----------------
|--(5)-5s7-7-7--(7)-7-2-2-2--(2)-3s5-5-5--(2)-5s7-7-7---
|--(3)-3s5-5-5--(5)-5p0-0-0--(0)----------(0)-3s5-5-5---

Riff 2
|-----------------------------------------------------------
|----------------------------------------------------------- 1st & 3rd time
|-----------------------------------------------------------
|--(5)-5s7-7-7--(7)-7s10-10-10-(10)-10s9-9-9--(9)-9s7-7-7---
|--(3)-3s5-5-5--(5)-5s8--8--8--(8)--8s7--7-7--(7)-7s5-5-5---
|----------------------------------------0-0----------------

|--------------------------------------------------------------------------
|-------------------------------------------------------------------------- 2nd time
|--------------------------------------------------------------------------
|--(5)-5s7-7-7--(7)-7s10-10-10-(10)-10s9-9-9--9----------------------------
|--(3)-3s5-5-5--(5)-5s8--8--8--(8)--8s7--7-7--7-(2)(2)(2)(2)(2)(2)(2)(2)---
|----------------------------------------0-0----(0)(0)(0)(0)(0)(0)(0)(0)---

|------------------------------------------------------------------------------
|------------------------------------------------------------------------------ 4th time
|------------------------------------------------------------------------------
|--(5)-5s7-7-7--(7)-7s10-10-10-(10)-10s12-12-12--12----------------------------
|--(3)-3s5-5-5--(5)-5s8--8--8--(8)--8s10--10-10--10-(7)(7)(7)(7)(7)(7)(7)(7)---
|---------------------------------------------------(5)(5)(5)(5)(5)(5)(5)(5)---

Repeat Riff 1.2

Riff 3.1
|-------------------------------------------------------------------------------------------
|-------------------------------------------------------------------------------------------
|-------------------------------------------------------------------------------------------
|-------------------------------------------------------------------------------------------
|--(2)(2)(2)(2)(2)(2)(2)(2)(5)(5)(5)(5)(5)(5)(5)(5)(7)(7)(7)(7)(7)(7)(7)(7)-----------------
|--(0)(0)(0)(0)(0)(0)(0)(0)(3)(3)(3)(3)(3)(3)(3)(3)(5)(5)(5)(5)(5)(5)(5)(5)-8-7-5-8-8-7-7---

Riff 3.2
|-------------------------------------------------------------------------------------------
|-------------------------------------------------------------------------------------------
|-------------------------------------------------------------------------------------------
|--(2)(2)(2)(2)(2)(2)(2)(2)(5)(5)(5)(5)(5)(5)(5)(5)(7)(7)(7)(7)(7)(7)(7)(7)-----------------
|--(0)(0)(0)(0)(0)(0)(0)(0)(3)(3)(3)(3)(3)(3)(3)(3)(5)(5)(5)(5)(5)(5)(5)(5)-8-7-5-8-8-7-7---
|-------------------------------------------------------------------------------------------

Repeat Riff 2

Repeat Riff 1.2