It's the Fear


Tabbed by chr (thedarkdream)

Tuning E A D G B E

Note: I thought WT tuning is B, that was what I saw from the
Ice Queen video. But in the new album they have a very low A
and I wonder whether they tune in A or Drop A. However, I
tabbed this in E... It seems correct to me.

Intro
e[--------------------------------------------]
B[--------------------------------------------]
G[--------------------------------------------]
D[--5--------3--5-----3--5--------3-----3--5--]
A[--5--3--1--3--5--3--3--5--3--1--3--6--3--5--]
E[--3--3--1--1--3--3--1--3--3--1--1--6--1--3--]

Verse
e[---------------------------------------------]
B[---------------------------------------------]
G[---------------------------------------------]
D[--5-5-555-5----------------------------------] (2x)
A[--5-5-555-5--6-6-666-6--3-3-333-3-5-5-555-5--]
E[--3-3-333-3--6-6-666-6--3-3-333-3-5-5-555-5--]

Pre-Chorus
e[-------------------------------------]
B[-------------------------------------]
G[-------------------------------------]
D[-------------5-----------------------]
A[---6----3----5----5----6----3----5---]
E[---6----3----3----5----6----3----5---]

Chorus
e[--------------------------------------------]
B[--------------------------------------------]
G[--------------------------------------------]
D[--5--------3--5-----3--5--------3-----3--5--]
A[--5--3--1--3--5--3--3--5--3--1--3--6--3--5--]
E[--3--3--1--1--3--3--1--3--3--1--1--6--1--3--]

Verse
e[---------------------------------------------]
B[---------------------------------------------]
G[---------------------------------------------]
D[--5-5-555-5----------------------------------]
A[--5-5-555-5--6-6-666-6--3-3-333-3-5-5-555-5--]
E[--3-3-333-3--6-6-666-6--3-3-333-3-5-5-555-5--]

e[--------------------------------------------]
B[--------------------------------------------]
G[--------------------------------------------]
D[--------------------------------------------]
A[-----------------------3-3\1/3-3-5-5\3/5-5--]
E[--3-3\1/3-3--6-6\5/6-6----------------------]

Pre-Chorus
e[-------------------------------------]
B[-------------------------------------]
G[-------------------------------------]
D[-------------5-----------------------]
A[---6----3----5----5----6----3----5---]
E[---6----3----3----5----6----3----5---]

Chorus
e[--------------------------------------------]
B[--------------------------------------------]
G[--------------------------------------------]
D[--5--------3--5-----3--5--------3-----3--5--]
A[--5--3--1--3--5--3--3--5--3--1--3--6--3--5--]
E[--3--3--1--1--3--3--1--3--3--1--1--6--1--3--]

2:33
e[-------------------------------]
B[-------------------------------]
G[-------------------------------]
D[-------5-------3---------------]
A[---3---5---6---3---6---3---5---]
E[---3---3---6---1---6---3---5---]

e[---------------------------------------------]
B[---------------------------------------------]
G[---------------------------------------------]
D[--5-5-555-5----------------------------------]
A[--5-5-555-5--6-6-666-6--3-3-333-3-5-5-555-5--]
E[--3-3-333-3--6-6-666-6--3-3-333-3-5-5-555-5--]

Solo (chorus riff on background) (2 guitars)

e[-----------------------------------------------------------------------]
B[-----------------------------------------------------------------------]
G[----9--7-9-10-9--7------9-7----9-9-----9--7-9-10-9--7------------------]
D[-------------------10-9-----10------9------------------10-9--10---9----]
A[-----------------------------------------------------------------------]
E[-----------------------------------------------------------------------]