See Who I Am


Tabbed by chr (thedarkdream)

Tuning E A D G B E

Note: I think WT either tune to A or use a 7-string (though I have no proof
of that.) I tabbed it in E - for lower tunings add a string down to do the
complete power chord.

Intro
e[-------------------------------------------------------]
B[-------------------------------------------------------]
G[--------------------2----------------------------------]
D[--------------------2---------------------2-5---4---5--]
A[--2-2-222--2222-2-220---2-2-222--2222-2-222-5---4---5--]
E[--2-2-222--2222-2-22----2-2-222--2222-2-220-3---2---3--]
    . . ...  .... . ..    . . ...  .... . ..

e[---------------------------------------------------]
B[---------------------------------------------------]
G[--------------------2------------------------------]
D[--------------------2---------------------2-5---4--]
A[--2-2-222--2222-2-220---2-2-222--2222-2-222-5---4--]
E[--2-2-222--2222-2-22----2-2-222--2222-2-220-3---2--]
    . . ...  .... . ..    . . ...  .... . ..

e[----------------------]
B[----------------------]
G[----------------------]
D[----------------------]
A[-2-2-222-2-222-2-222--]
E[-2-2-222-2-222-2-222--]
   . . ... . ... . ...

Pre-chorus
e[-------------------------]
B[-------------------------]
G[-------------------------]
D[--2-2---------4-4---5-5--] (2x)
A[--2-2---5-5---4-4---5-5--]
E[--0-0---5-5---2-2---3-3--]

Chorus
e[-------------------------------------------------------------]
B[-------------------------------------------------------------]
G[--------------------2----------------------------------------]
D[--------------------2---------------------2-5---4---5--2--4--]
A[--2-2-222--2222-2-220---2-2-222--2222-2-222-5---4---5--0--2--]
E[--2-2-222--2222-2-22----2-2-222--2222-2-220-3---2---3--0--2--]
    . . ...  .... . ..    . . ...  .... . ..

Verse
e[---------------------------------------------------------------]
B[---------------------------------------------------------------]
D[------------------------------------------2-2-222-2------------]
G[--2-2-222-2-----------2-2-222-2-----------2-2-222-2-4-4-444-4--]
A[--2-2-222-2-2-2-222-2-2-2-222-2-5-5-555-5-0-0-000-0-4-4-444-4--] (2x)
E[--0-0-000-0-2-2-222-2-0-0-000-0-5-5-555-5-----------2-2-222-2--]
    . . ... . . . ... . . . ... . . . ... . . . ... . . . ... .

Chorus(slight difference from last one)
e[-------------------------------------------------------]
B[-------------------------------------------------------]
G[--------------------2----------------------------------]
D[--------------------2---------------------2-5---4---5--]
A[--2-2-222--2222-2-220---2-2-222--2222-2-222-5---4---5--]
E[--2-2-222--2222-2-22----2-2-222--2222-2-220-3---2---3--]
    . . ...  .... . ..    . . ...  .... . ..

e[-------------------------------------------------------------]
B[-------------------------------------------------------------]
G[--------------------2----------------------------------------]
D[--------------------2---------------------2-5---4---5--2--4--]
A[--2-2-222--2222-2-220---2-2-222--2222-2-222-5---4---5--0--2--]
E[--2-2-222--2222-2-22----2-2-222--2222-2-220-3---2---3--0--2--]
    . . ...  .... . ..    . . ...  .... . ..

(3:03)
e[----------------------------------------------------------------]
B[----------------------------------------------------------------]
G[----------------------------------------------------------------]
D[---5-------------------4-------------------7--------------------]
A[---5-------------------4-------------------7--------------------]
E[---3-3-333-3-333-3-333-2-2-222-2-222-2-222-5-5-555-5-555-5-555--]
     . . ... . ... . ... . . ... . ... . ... . . ... . ... . ...

e[-----------------------]
B[-----------------------]
G[-----------------------]
D[-----------------------]
A[--2-2-222-2-222-2-222--]
E[--2-2-222-2-222-2-222--]

e[----------------------------------------------------------------]
B[----------------------------------------------------------------]
G[----------------------------------------------------------------]
D[---5-------------------4-------------------7--------------------]
A[---5-------------------4-------------------7--------------------]
E[---3-3-333-3-333-3-333-2-2-222-2-222-2-222-5-5-555-5-553-3-333--]
     . . ... . ... . ... . . ... . ... . ... . . ... . ... . ...

e[-----------------------]
B[-----------------------]
G[-----------------------]
D[-----------------------]
A[--2-2-222-2-222-2-222--]
E[--2-2-222-2-222-2-222--]

4:05 chorus
e[-------------------------------------------------------]
B[-------------------------------------------------------]
G[--------------------2----------------------------------]
D[--------------------2---------------------2-5---4---5--]
A[--2-2-222--2222-2-220---2-2-222--2222-2-222-5---4---5--]
E[--2-2-222--2222-2-22----2-2-222--2222-2-220-3---2---3--]
    . . ...  .... . ..    . . ...  .... . ..

e[-------------------------------------------------------------]
B[-------------------------------------------------------------]
G[--------------------2----------------------------------------]
D[--------------------2---------------------2-5---4---5--2--4--]
A[--2-2-222--2222-2-220---2-2-222--2222-2-222-5---4---5--0--2--]
E[--2-2-222--2222-2-22----2-2-222--2222-2-220-3---2---3--0--2--]
    . . ...  .... . ..    . . ...  .... . ..