In Perfect Harmony


Intro- (Flauta)

D               G6
In a world so far away
D                  G6  
At the end of a closing day
D                    G6
A little child was born and raised
D                         G6
Deep in the forest on a hidden place
        A             D 
Mother never saw his face


Chorus (2 Vezes)
          D             G6
Ancient spirits of the forest
      A                      Bm
Made him king of elves and threes
           D           G6
He was the only human being
     A            Bm
Who lived in harmony
    G6       A    D
In perfect harmony


D                      G6
The woods protected, fulfillled his needs 
D                 G6
Fruit by birds, honey by bees
D                 G6
He found shelter under threes
D                     G6
He grew up in their company
        A            D
They became his family


Chorus (2vezes) + SOLO

D         
A thousand seasons
      G6
They passed him by
D                     G6
So many times, have said goodbye
D                             G6
And when the spirits called out his name
D                    G6
To join forever, forever to stay
           A          D
A forest spirit he became

Chorus (2 vezes)

    G6      A    D
In Perfect Harmony___

Teclados + SOLO

 Chorus (2 vezes)
    G6      A    D
In Perfect Harmony___




*INTRO - Flauta (Adaptado para guitarra / violao)
e|-----10~-12~-----10~-------------
B|-10~---------12~-----12~-10~~----
G|---------------------------------
D|---------------------------------
A|---------------------------------
E|---------------------------------

e|-----10~-12~-----10~-14-12-14~~--
B|-10~---------12~-----------------
G|---------------------------------
D|---------------------------------
A|---------------------------------
E|---------------------------------



*SOLO - (Use pedal de distor