Enter


Transcription done by: Sven Deckers

() - palm mute		^ - bend 1 step 	h - hammer on
[] - little feedback	p - pull off		s - slide

Tune to D (D,G,C,F,A,D)

Riff 1
|-------------------|---------
|-------------------|---------
|-------------------|---------
|-------------------|---------
|--2--(2)-2---------|---3-2--- 1st & 3rd time
|--0--(0)-0--0-2-3--|-5-------

		    |---------  2nd time
		    |---------
		    |---------
		    |---------
		    |---------
		    |-2-3-2---

		    |----------------------------  4th time
		    |----------------------------
		    |----------------------------
		    |----------------------------
		    |-(4)(4)(4)(4)(4)(4)(4)(4)---
		    |-(2)(2)(2)(2)(2)(2)(2)(2)---


Riff 2
|---------------------------------------------------------------- 1st, 2nd & 3rd time
|----------------------------------------------------------------
|----------------------------------------------------------------
|----------------------------------------------------------------
|--2--(2)-2---2--(2)-2---10-(10)-10--(10)-10s9-9-9s7-(5)(5)(5)---
|--0--(0)-0---0--(0)-0---8--(8)--8---(8)--8s7--7-7s5-(3)(3)(3)---
|
|------------------------------------------------------------ 4th time
|------------------------------------------------------------
|------------------------------------------------------------
|------------------------5--(5)-5--(5) 5s7-7--(7)(7)(7)(7)---
|--2--(2)-2---2--(2)-2---3--(3)-5--(3)-3s5-5--(5)(5)(5)(5)---
|--0--(0)-0---0--(0)-0---------------------------------------



Guitar 2 (melody)
|--12-0----12-0----12----17-0----15-0----12-10------ 1st, 2nd & 3rd time
|-------12------12----12------12------12------------
|---------------------------------------------------
|---------------------------------------------------
|---------------------------------------------------
|---------------------------------------------------
|
|--12-0----12-0----12----17-0-19-0-20-19------------ 4th time
|-------12------12----12----------------------------
|---------------------------------------------------
|---------------------------------------------------
|---------------------------------------------------
|---------------------------------------------------


Riff 3
|--------------------------------------------------- 1st & 2nd time
|---------------------------------------------------
|---------------------------------------------------
|------------7-------------------3---------3--------
|--7--(7)(7)----7--7---3--(3)(3)----3--(3)----3s5---
|--5--(5)(5)----5--5---1--(1)(1)----1--(1)----1s3---
|
|--------------------------------------------------------- 3rd time
|---------------------------------------------------------
|---------------------------------------------------------
|------------7------------7------------3---------3--------
|--7--(7)(7)----7--(7)(7)----3--(3)(3)----3--(3)----3s5---
|--5--(5)(5)----5--(5)(5)----1--(1)(1)----1--(1)----1s3---
|
|--------------------------------------------------------------------- 4th time
|---------------------------------------------------------------------
|---------------------------------------------------------------------
|------------7------------7------------3------------------------------
|--7--(7)(7)----7--(7)(7)----3--(3)(3)----(2)(2)--3p2--(2)(2)(2)(2)---
|--5--(5)(5)----5--(5)(5)----1--(1)(1)----(0)(0)--1p0--(0)(0)(0)(0)---


Interlude Riff (after "I want to feel the warmth on my face / ..." where Rob sets in)
|-----------------------------
|-----------------------------
|-----------------------------
|-----------------------------
|--10-9--(7)(7)-7--(5)(5)-5---
|--8--7--(5)(5)-5--(3)(3)-3---


Riff 4
|----------------------|-------------------------- 1st & 3rd time
|----------------------|--------------------------
|----------------------|--------------------------
|---------3---------3--|--------------------------
|--3--(3)----3--(3)----|--2--2--2--(2)(2)(2)(2)---
|--1--(1)----1--(1)----|--0--0--0--(0)(0)(0)(0)---
|
		       |----------------------- 2nd time
		       |-----------------------
		       |-----------------------
		       |-----------------------
		       |--7-7-7-(7)(7)(7)(7)---
		       |--5-5-5-(5)(5)(5)(5)---

		       |----------------------------- 4th time
		       |-----------------------------
		       |-----------------------------
		       |-----------------------------
		       |--10-9--(7)(7)-7--(5)(5)-5---
		       |--8--7--(5)(5)-5--(3)(3)-3---


Repeat Riff 2
Note: the scheme that is played the 4th time, is now also played the 2nd time.

Riff 3
Note: Listen to hear a little rythm variation in it.

Repeat Interlude Riff

Repeat Riff 1

Repeat Riff 2
Note: Listen to hear a little rythm variation in it.
Note: Endnote: |----|-12-- guitar 2
	       |----|-----
	       |----|-----*********
	       |----|-----
	       |--2-|----- guitar 1
	       |--0-|-----

Guitar 2 (altered melody)
|-----12----0-19-17-15-0----12----0-17-15-14-0---
|--12----12--------------12----12----------------
|------------------------------------------------
|------------------------------------------------
|------------------------------------------------
|------------------------------------------------
|
|-----12----0-15-14-12----12----14----15-14-12-14---
|--12----12------------12----12----12---------------
|---------------------------------------------------
|---------------------------------------------------
|---------------------------------------------------
|---------------------------------------------------