Ice Queen


Transcribed By: chr

Tuning E A D G B E

e[----------------------------------------------]
B[----------------------------------------------]
G[----------------------------------------------]
D[--6--6--6--x-2--2-2--2--4---6--6--6--x--------]
A[--6--6--6--x-2--2-2--2--4---6--6--6--x-4--4-4-]
E[--4--4--4--x-0--0-0--0--2---4--4--4--x-4--4-4-]

[---------------------------------------------------------]
[---------------------------------------------------------]
[-----------------------------------4--4--4--x-3--3-3--3--]
[----2--6--6--6--x--2--2-2--2--x-x--4--4--4--x-3--3-3--3--]   (2x)
[-4--2--6--6--6--x--2--2-2--2--x-x--2--2--2--x-1--1-1--1--]
[-4--0--4--4--4--x--0--0-0--0--x-x------------------------]
before verse
e[-------------------------------------]
B[-------------------------------------]
G[----4-4---4------4-4---4------4-3----]
D[----4-4---4------4-4---4------4-3----]
A[----2-2---2------2-2---2------2-1----]
E[-------------------------------------]

verse
e[-------------------------------------]
B[-------------------------------------]
G[-------------------------------------]
D[-------------------------------------]  (4x)
A[-------------------2-2-2-------------]
E[--4-4-4---0-00-0-----------2-22-2----]

chorus
e[-----------(3x)--------------------------]
B[---______________________----------------]
G[--/----------------------\-------4-------]
D[----------------6-6--6---6-------4----4--]
A[--4--4--4----x--6-6--6---6-------2----4--]
E[--4--4--4----x--4-4--4---4------------2--]

e[-----------(2x)--------------------------]
B[---______________________----------------]
G[--/----------------------\---------------]
D[----------------6-6--6---6-------2----4--]
A[--4--4--4----x--6-6--6---6-------2----4--]
E[--4--4--4----x--4-4--4---4-------0----2--]

verse
e[-------------------------------------]
B[-------------------------------------]
G[-------------------------------------]
D[-------------------------------------]  (4x)
A[-------------------2-2-2-------------]
E[--4-4-4---0-00-0-----------2-22-2----]

e[----------------------------------------------]
B[----------------------------------------------]
G[----------------------------------------------]
D[--6--6--6--x-2--2-2--2--4---6--6--6--x--------]
A[--6--6--6--x-2--2-2--2--4---6--6--6--x-4--4-4-]
E[--4--4--4--x-0--0-0--0--2---4--4--4--x-4--4-4-]

[---------------------------------------------------------]
[---------------------------------------------------------]
[-----------------------------------4--4--4--x-3--3-3--3--]
[----2--6--6--6--x--2--2-2--2--x-x--4--4--4--x-3--3-3--3--]   (2x)
[-4--2--6--6--6--x--2--2-2--2--x-x--2--2--2--x-1--1-1--1--]
[-4--0--4--4--4--x--0--0-0--0--x-x------------------------]

before verse
e[-------------------------------------]
B[-------------------------------------]
G[----4-4---4------4-4---4------4-3----]
D[----4-4---4------4-4---4------4-3----]
A[----2-2---2------2-2---2------2-1----]
E[-------------------------------------]

verse
e[-------------------------------------]
B[-------------------------------------]
G[-------------------------------------]
D[-------------------------------------]  (4x)
A[-------------------2-2-2-------------]
E[--4-4-4---0-00-0-----------2-22-2----]

chorus
e[-----------(3x)--------------------------]
B[---______________________----------------]
G[--/----------------------\-------4-------]
D[----------------6-6--6---6-------4----4--]
A[--4--4--4----x--6-6--6---6-------2----4--]
E[--4--4--4----x--4-4--4---4------------2--]

e[-----------(3x)--------------------------]
B[---______________________----------------]
G[--/----------------------\---------------]
D[----------------6-6--6---6-------2----4--]
A[--4--4--4----x--6-6--6---6-------2----4--]
E[--4--4--4----x--4-4--4---4-------0----2--]

outro
e[--------------------------------------------]
B[--------------------------------------------]
G[-----------------------------------4--3-----]
D[--2-2-----------6-6----4-4---2-2---4--3--6--]  (2x)
A[--2-2----4-4----6-6----4-4---2-2---2--1--6--]
E[--0-0----4-4----4-4----2-2---0-0---------4--]