The Other Half (Of Me)


Transcription done by: Sven Deckers

() - palm mute		^ - bend 1 step 	h - hammer on
[] - little feedback	p - pull off		s - slide

Within Temptation - The Other Half (Of Me)

Tune to D (D,G,C,F,A,D)


Riff 1
*Note: 6th string is optional
This is the first part of every time:
|------------------------------------------------------------------------
|------------------------------------------------------------------------
|------------------------------------------------------------------------
|--7s9-(9)(9)(9)(9)-7s9-(9)(9)(9)(9)-7s9-(9)(9)(9)(9)-7s9-(9)(9)(9)(9)---
|--5s7-(7)(7)(7)(7)-5s7-(7)(7)(7)(7)-5s7-(7)(7)(7)(7)-5s7-(7)(7)(7)(7)---
|--5s7-(7)(7)(7)(7)-5s7-(7)(7)(7)(7)-5s7-(7)(7)(7)(7)-5s7-(7)(7)(7)(7)---
|
These are the second parts of every time:
1.
|------------------------------------------------------------------------------------
|------------------------------------------------------------------------------------
|------------------------------------------------------------------------------------
|--9s10(10)(10)(10)(10)-9s10(10)(10)(10)(10)-9s10(10)(10)(10)(10)-10s12-12-12s10-9---
|--7s8-(8)-(8)-(8)-(8)--7s8-(8)-(8)-(8)-(8)--7s8-(8)-(8)-(8)-(8)--8s10--10-10s8--7---
|--7s8-(8)-(8)-(8)-(8)--7s8-(8)-(8)-(8)-(8)--7s8-(8)-(8)-(8)-(8)--8s10--10-10s8--7---
2. 
|---------------------------------------------------------------------
|---------------------------------------------------------------------
|---------------------------------------------------------------------
|---------------------------------------------------------9s10-10-10--
|--(8)(8)(8)(8)(8)(8)(8)(8)(8)(8)(8)(8)-8s10-10-10-10-10--7s8--8--8---
|--(6)(6)(6)(6)(6)(6)(6)(6)(6)(6)(6)(6)-6s8--8--8--8--8---7s8--8--8---
							 | not quite sure...
3.
|--------------------------------------------------------------
|--------------------------------------------------------------
|--------------------------------------------------------------
|--------------------------------------------------------------
|--(3)-(3)--(2)(2)(3)-(3)--(2)(2)(3)-(3)--(3)(3)-3s5-5-5s3-2---
|--(1)-(1)--(0)(0)(1)-(1)--(0)(0)(1)-(1)--(1)(1)-1s3-3-3s1-0---
4.
|-------------------------------------------------------------
|-------------------------------------------------------------
|-------------------------------------------------------------
|-------------------------------------------------------------
|--(8)(8)(8)(8)(8)(8)(8)(8)(8)(8)(8)(8)-8s10-10-10-10-10-10---
|--(6)(6)(6)(6)(6)(6)(6)(6)(6)(6)(6)(6)-6s8--8--8--8--8--8----


Riff 2
|------------------|--------------------
|------------------|--------------------
|------------------|--------------------
|------------------|--------------------
|--(7)-(2)-(8)-(5)-|--(7)-(2)-(8)-(10)--
|--(5)-(0)-(6)-(3)-|--(5)-(0)-(6)-(8)---
   x24 x24 x24 x24    x24 x24 x24 x24


Repeat Riff 1
Play 3. the first time too

Riff 3
This is the first part of every time:
|-----------------------------------------------------
|-----------------------------------------------------
|-----------------------------------------------------
|-----------------------------------------------------
|--8--(8)(8)(8)8--(8)(8)(8)8--(8)(8)(8)8--(8)(8)(8)---
|--6--(6)(6)(6)6--(6)(6)(6)6--(6)(6)(6)6--(6)(6)(6)---
|
These are the second parts of every time:
1. & 3.
|-----------------------------------------------------
|-----------------------------------------------------
|-----------------------------------------------------
|-----------------------------------------------------
|--5--(5)(5)(5)5--(5)(5)(5)5--(5)(5)(5)5--(5)(5)(5)---
|--3--(3)(3)(3)3--(3)(3)(3)3--(3)(3)(3)3--(3)(3)(3)---
2.
|-----------------------------------------------------
|-----------------------------------------------------
|-----------------------------------------------------
|-----------------------------------------------------
|--7--(7)(7)(7)5--(7)(7)(7)7--(7)(7)(7)7--(7)(7)(7)---
|--5--(5)(5)(5)5--(5)(5)(5)5--(5)(5)(5)5--(5)(5)(5)---
4.
|-----------------------------------------------------
|-----------------------------------------------------
|-----------------------------------------------------
|--5--(5)(5)(5)5--(5)(5)(5)5--(5)(5)(5)5--(5)(5)(5)---
|--3--(3)(3)(3)3--(3)(3)(3)3--(3)(3)(3)3--(3)(3)(3)---
|-----------------------------------------------------


Riff 4
|-------------------------------------------
|-------------------------------------------
|-------------------------------------------
|--7---9---5---(8)-(8)-(8)8--(8)-(8)-(8)8---
|--5---7---3---(6)-(6)-(6)6--(6)-(6)-(6)6---
|------0---3---(6)-(6)-(6)6--(6)-(6)-(6)6---


Repeat Riff 3
Ends in
|------
|------
|------
|------
|--2---
|--0---


Repeat Riff 1
Play 3. the first time too

Riff 5
|------------------------------------------------------------------
|------------------------------------------------------------------
|------------------------------------------------------------------
|--6---------------------------------------------------------------
|--4---(7)(7)(7)(7)(7)(7)(7)(7)(7)(7)(7)(7)(7)(7)(7)(7)(7)(7)(7)---
|------(5)(5)(5)(5)(5)(5)(5)(5)(5)(5)(5)(5)(5)(5)(5)(5)(5)(5)(5)---
|
|---------------------------------------------------------------------------------
|---------------------------------------------------------------------------------
|---------------------------------------------------------------------------------
|--6------------------------------------------------------------------------------
|--4---(4)(4)(4)(4)(4)(4)(4)(4)(4)(4)(4)(4)(6)(6)(6)(6)(6)(6)(6)(6)(6)(6)(6)(6)---
|------(2)(2)(2)(2)(2)(2)(2)(2)(2)(2)(2)(2)(4)(4)(4)(4)(4)(4)(4)(4)(4)(4)(4)(4)---
|
|-------------------------------------------------------
|------------------------------------------------------- Guitar 1
|--6-66666-66667-77776-6666-----------------------------
|-------------------------------------------------------
|----------------------------777777777777777777777777---
|----------------------------555555555555555555555555---
|
|-------------------------------------------------------
|------------------------------------------------------- Guitar 2
|-------------------------------------------------------
|--6----------------------------------------------------
|--4-------------------------777777777777777777777777---
|----------------------------555555555555555555555555---
|
|--------------------------------------------------------------------------------------------
|--------------------------------------------------------------------------------------------
|--------------------------------------------------------------------------------------------
|--------------------------------------------------------------------------------------------
|--444444444444444444444444-666666666666666666666666-(7)-(7)-(7)-(7)-(7)-(7)-(7)-(7)-(7)-7---
|--222222222222222222222222-444444444444444444444444-(5)-(5)-(5)-(5)-(5)-(5)-(5)-(5)-(5)-5---


Repeat Riff 2
Ends in
|-----------
|-----------
|-----------
|--7...-7---
|--5...-5---
|-----------