Restless


Transcription done by: Sven Deckers

() - palm mute		^ - bend 1 step 	h - hammer on
[] - little feedback	p - pull off		s - slide

Tune to D (D,G,C,F,A,D)

Riff A
|------------------
|------------------
|------------------
|------5---7---9---
|--7---3---5---7---
|--5-----------0---


Solo
|------------------------------------------------------------------
|--15^--15-12-13-13-12----------------12-13-12h13-13-13s15-17-17---
|----------------------9---9-12h14-14------------------------------
|------------------------------------------------------------------
|------------------------------------------------------------------
|------------------------------------------------------------------
|
|-19-17-----20-19-----22-20----------------------
|-------17--------17--------18--18s17-17h18-17---
|-------------------------------------* x7 *-----
|------------------------------------------------
|------------------------------------------------
|------------------------------------------------

Riff B
|------------------------------------------
|------------------------------------------
|------------------------------------------
|--7-------5-5-2----7----------------------
|--5---3---3-2-0----5---3--(5)-5---(5)-5---
|------1----------------1--(3)-3---(3)-3---

Repeat Riff A.

Riff C (Sharon starts 'lalala'-ing)
|-------------------
|-------------------
|-------------------
|---7---------------
|---5---3---5---7---
|-------1---3---5---