Jane Doe


INTRO

G|----------|
D|----------|
A|----------|
E|-0--------|
B|----------|

G|--------------------------|
D|--------------------------|
A|--------------------------|
E|-0------------------------|
B|---------4-------1--------|


CHORUS

G|----------------------------------|
D|----------------------------------|
A|----------------------------------|
E|-0---------------0----------------|
B|---------1---------------3--------|

G|----------------------------------|
D|----------------------------------|
A|----------------------------------|
E|-0---------------3----------------|
B|---------1---------------33333333-|

G|----------------------------------|
D|----------------------------------|
A|----------------------------------|
E|-0---------------3----------------|
B|---------1---------------00011133-|

G|-----------|
D|-----------|
A|-----------|
E|-0---------|
B|---------1-|


VERSE

G|---------|--------|--------|---------|
D|---------|--------|--------|---------|
A|---------|--------|--------|---------|
E|-00000000|00000000|00000000|00000000-|
B|---------|--------|--------|---------|

G|---------|--------|--------|---------|
D|---------|--------|--------|---------|
A|---------|--------|--------|---------|
E|-00000000|--------|33333333|33333333-|
B|---------|11111111|--------|---------|

G|---------|--------|--------|---------|
D|---------|--------|--------|---------|
A|---------|--------|--------|---------|
E|-00000000|--------|33333333|33333333-|
B|---------|11111111|--------|---------|

G|---------|--------|--------|---------|
D|---------|--------|--------|---------|
A|---------|--------|--------|---------|
E|-00000000|--------|33333333|33333333-|
B|---------|11111111|--------|---------|

G|---------|--------|--------|---------|
D|---------|--------|--------|---------|
A|---------|--------|--------|---------|
E|---------|55555555|--------|---------|
B|-11111111|--------|55555555|55553333-|

G|---------|--------|--------|---------|
D|---------|--------|--------|---------|
A|---------|--------|--------|---------|
E|---------|55555555|--------|---------|
B|-11111111|--------|55555555|55553333-|

G|---------|--------|--------|---------|
D|---------|--------|--------|---------|
A|---------|--------|--------|---------|
E|---------|55555555|--------|---------|
B|-11111111|--------|55555555|55553333-|


G|---------|--------|--------|---------|
D|---------|--------|--------|---------|
A|---------|--------|--------|---------|
E|---------|--------|--------|---------|
B|-57-57-5-|57-57-5-|-7------|00001133-|



INTRO
CHORUS
VERSE
CHORUS
VERSE
CHORUS
(BREAK)
CHORUS