It's the Fear


INTRO
G|--------------------------------------------------------------|
D|--------------------------------------------------------------|
A|---------1-----------------------------------1----------------|
E|-3-----------1---3-------1-------3-------1-----------1---3----|
A|-----3---------------3-------531-----3-----------6------------|

VERSE
G|--------------------------------------------------|
D|--------------------------------------------------|
A|--------------------------------------------------|
E|-333-333-333--------------------------------------|
A|-------------666-666-666-333-333-333-555-555-555--|  X2

PRE CHORUS
G|-----------------------------------------------------------------|
D|-----------------------------------------------------------------|
A|-----------------------------------------------------------------|
E|-----------------333-33-3----------------------------------------|
A|-666-66-6333-33-3--------555-55-5666-66-6333-33-3555-55-5-3-1-0--|

CHORUS
G|--------------------------------------------------------------|
D|--------------------------------------------------------------|
A|---------1-----------------------------------1----------------|
E|-3-----------1---3-------1-------3-------1-----------1---3----|
A|-----3---------------3-------531-----3-----------6------------|

BRIDGE
G|----------------------------------------|
D|----------------------------------------|
A|----------------------------------------|
E|-------3-3-----1-1----------------------|
A|---3-3-----6-6-----6-6-3-3-5-5-5-3-1-0--|

SOLO/ENDING
G|--------------------------------------------------------------|
D|--------------------------------------------------------------|
A|---------1-----------------------------------1----------------|
E|-3-----------1---3-------1-------3-------1-----------1---3----|
A|-----3---------------3-------531-----3-----------6------------| X2

G|------------|
D|------------|
A|------------|
E|------------|
A|-5--3--1--0-|