Memories


VERSE
G|------------------|
D|------------------|
A|-1-----------4----|
E|-----1---2-----4--|
B|------------------|

G|------------------|
D|------------------|
A|-1-----------4----|
E|-----1---2-----4--|
B|------------------|

G|------------------|
D|------------------|
A|------------------|
E|-----1---2---4--24|
B|-4----------------|


CHORUS
G|------------------|
D|------------------|
A|-1----------------|
E|-----2-------4--24|
B|---------2--------|

G|------------------|
D|------------------|
A|-1---------------1|
E|-----2---------24-|
B|---------2---4----|


INTERLUDE
G|------------------|
D|------------------|
A|-----1------------|
E|---------4---2----|
B|-4----------------|

G|------------------|
D|------------------|
A|-----1------------|
E|---------4---2--24|
B|-4----------------|


OUTRO
G|------------------|
D|------------------|
A|-1-------1--------|
E|-----2-------2----|
B|------------------|

G|------------------|
D|------------------|
A|-----1------------|
E|---------4---2----|
B|-4----------------|

G|------------------|
D|------------------|
A|-1----------------|
E|------------------|
B|------------------|