Stand My Ground


Tabbed by MetalBass

Tuning 5-string: B E A D G

Intro only keyboard...then...

verse I
G ----------------------------------------------------|
D ----------------------------------------------------| try to get the rhytm
A ----------------------------------------------------|
E --------------------1h3----------------------3---4--|
B -1-11111111-3h4-111-----1-11111111-3h4-1111---------|

Chorus
G -------------------------------------------|
D -------------------------------------------|
A ------------1-11--------------1-11---------|
E -1-11-------------4-3-1-------------4-3-1--|
B -------2-22--------------2-22--------------|

verse II
G ----------------------------------------|
D ----------------------------------------|
A ----------------------------------------|
E --------------------44-4-444--11-1-111--|
B -11-1-111--11-1-111---------------------|

G ------------------------------------------------|
D ------------------------------------------------|
A ------------------------------------------------|
E ---------------------------4444-4444-1111-1111--|
B -1111-1111-11-1111-1111-11----------------------|

verse I 1x
Chorus
Rest
Chorus 2x